ISO-10303-21;
HEADER;
FILE_DESCRIPTION (( 'STEP AP203' ),
    '1' );
FILE_NAME ('End Cap SDR17_001 115 0140 0110.step',
    '2019-12-16T11:43:29',
    ( '' ),
    ( '' ),
    'SwSTEP 2.0',
    'SolidWorks 2019',
    '' );
FILE_SCHEMA (( 'CONFIG_CONTROL_DESIGN' ));
ENDSEC;

DATA;
#1 = EDGE_LOOP ( 'NONE', ( #207, #284 ) ) ;
#2 = CIRCLE ( 'NONE', #171, 213.4001574416022891 ) ;
#3 = VERTEX_POINT ( 'NONE', #240 ) ;
#4 = EDGE_LOOP ( 'NONE', ( #116, #287, #185 ) ) ;
#5 = EDGE_CURVE ( 'NONE', #114, #163, #301, .T. ) ;
#6 = DIRECTION ( 'NONE',  ( 0.0000000000000000000, 0.0000000000000000000, 1.000000000000000000 ) ) ;
#7 = LOCAL_TIME ( 14, 43, 29.00000000000000000, #123 ) ;
#8 = APPLICATION_PROTOCOL_DEFINITION ( 'international standard', 'config_control_design', 1994, #280 ) ;
#9 = DIRECTION ( 'NONE',  ( -0.0000000000000000000, -1.000000000000000000, -0.0000000000000000000 ) ) ;
#10 = PERSON_AND_ORGANIZATION_ROLE ( 'design_owner' ) ;
#11 = CC_DESIGN_PERSON_AND_ORGANIZATION_ASSIGNMENT ( #247, #36, ( #179 ) ) ;
#12 = CYLINDRICAL_SURFACE ( 'NONE', #230, 48.40000000000000568 ) ;
#13 = DATE_AND_TIME ( #219, #7 ) ;
#14 = LINE ( 'NONE', #101, #44 ) ;
#15 = CIRCLE ( 'NONE', #183, 48.40000000000001279 ) ;
#16 = SECURITY_CLASSIFICATION_LEVEL ( 'unclassified' ) ;
#17 = DIRECTION ( 'NONE',  ( -0.0000000000000000000, -1.000000000000000000, -0.0000000000000000000 ) ) ;
#18 = APPROVAL_DATE_TIME ( #225, #91 ) ;
#19 = LINE ( 'NONE', #106, #237 ) ;
#20 = DIRECTION ( 'NONE',  ( 0.0000000000000000000, 0.0000000000000000000, -1.000000000000000000 ) ) ;
#21 = ADVANCED_BREP_SHAPE_REPRESENTATION ( 'End Cap SDR17_001 115 0140 0110', ( #79, #64 ), #24 ) ;
#22 = AXIS2_PLACEMENT_3D ( 'NONE', #54, #145, #244 ) ;
#23 = DIRECTION ( 'NONE',  ( -0.0000000000000000000, -1.000000000000000000, -0.0000000000000000000 ) ) ;
#24 =( GEOMETRIC_REPRESENTATION_CONTEXT ( 3 ) GLOBAL_UNCERTAINTY_ASSIGNED_CONTEXT ( ( #159 ) ) GLOBAL_UNIT_ASSIGNED_CONTEXT ( ( #232, #136, #241 ) ) REPRESENTATION_CONTEXT ( 'NONE', 'WORKASPACE' ) );
#25 = ORIENTED_EDGE ( 'NONE', *, *, #255, .F. ) ;
#26 = ORIENTED_EDGE ( 'NONE', *, *, #194, .F. ) ;
#27 = ORIENTED_EDGE ( 'NONE', *, *, #274, .F. ) ;
#28 = AXIS2_PLACEMENT_3D ( 'NONE', #153, #251, #40 ) ;
#29 = ORIENTED_EDGE ( 'NONE', *, *, #127, .T. ) ;
#30 = FACE_OUTER_BOUND ( 'NONE', #49, .T. ) ;
#31 = CIRCLE ( 'NONE', #201, 213.4001574416022891 ) ;
#32 = CC_DESIGN_APPROVAL ( #91, ( #258 ) ) ;
#33 = CARTESIAN_POINT ( 'NONE',  ( 0.0000000000000000000, 87.21301948096775902, -54.99999999999998579 ) ) ;
#34 = PERSON_AND_ORGANIZATION_ROLE ( 'creator' ) ;
#35 = CARTESIAN_POINT ( 'NONE',  ( 1.832819715975064247E-16, -126.1818899053472052, 1.496610873642216566 ) ) ;
#36 = PERSON_AND_ORGANIZATION_ROLE ( 'creator' ) ;
#37 = FACE_OUTER_BOUND ( 'NONE', #263, .T. ) ;
#38 = CIRCLE ( 'NONE', #206, 55.00000000000000711 ) ;
#39 = COORDINATED_UNIVERSAL_TIME_OFFSET ( 3, 0, .AHEAD. ) ;
#40 = DIRECTION ( 'NONE',  ( 0.0000000000000000000, 0.0000000000000000000, -1.000000000000000000 ) ) ;
#41 = DIRECTION ( 'NONE',  ( -0.0000000000000000000, -1.000000000000000000, -0.0000000000000000000 ) ) ;
#42 = DIRECTION ( 'NONE',  ( -0.0000000000000000000, -1.000000000000000000, -0.0000000000000000000 ) ) ;
#43 = PRODUCT_RELATED_PRODUCT_CATEGORY ( 'detail', '', ( #57 ) ) ;
#44 = VECTOR ( 'NONE', #197, 1000.000000000000000 ) ;
#45 = DIRECTION ( 'NONE',  ( 0.0000000000000000000, 0.0000000000000000000, -1.000000000000000000 ) ) ;
#46 = APPROVAL_PERSON_ORGANIZATION ( #195, #67, #80 ) ;
#47 = VERTEX_POINT ( 'NONE', #95 ) ;
#48 = ORIENTED_EDGE ( 'NONE', *, *, #274, .T. ) ;
#49 = EDGE_LOOP ( 'NONE', ( #93, #51, #162, #27 ) ) ;
#50 = TOROIDAL_SURFACE ( 'NONE', #222, 1.496610873642216566, 220.0000000000000568 ) ;
#51 = ORIENTED_EDGE ( 'NONE', *, *, #252, .T. ) ;
#52 = CARTESIAN_POINT ( 'NONE',  ( 0.0000000000000000000, -126.1818899053472052, -1.496610873642216566 ) ) ;
#53 = DIRECTION ( 'NONE',  ( 0.0000000000000000000, 0.0000000000000000000, 1.000000000000000000 ) ) ;
#54 = CARTESIAN_POINT ( 'NONE',  ( 0.0000000000000000000, 87.21301948096775902, 0.0000000000000000000 ) ) ;
#55 = CIRCLE ( 'NONE', #90, 48.39999999999999858 ) ;
#56 = DATE_AND_TIME ( #270, #276 ) ;
#57 = PRODUCT ( 'End Cap SDR17_001 115 0140 0110', 'End Cap SDR17_001 115 0140 0110', '', ( #243 ) ) ;
#58 = CARTESIAN_POINT ( 'NONE',  ( 1.832819715975064247E-16, -126.1818899053472052, 1.496610873642216566 ) ) ;
#59 = DATE_AND_TIME ( #272, #215 ) ;
#60 = DIRECTION ( 'NONE',  ( 0.0000000000000000000, -1.000000000000000000, -0.0000000000000000000 ) ) ;
#61 = PERSON_AND_ORGANIZATION ( #69, #233 ) ;
#62 = CARTESIAN_POINT ( 'NONE',  ( 0.0000000000000000000, 87.21301948096775902, 0.0000000000000000000 ) ) ;
#63 = PRODUCT_DEFINITION ( 'BÝLÝNMEYEN', '', #179, #110 ) ;
#64 = AXIS2_PLACEMENT_3D ( 'NONE', #267, #53, #143 ) ;
#65 = DIRECTION ( 'NONE',  ( -0.0000000000000000000, -1.000000000000000000, -0.0000000000000000000 ) ) ;
#66 = CARTESIAN_POINT ( 'NONE',  ( 0.0000000000000000000, 0.0000000000000000000, -48.40000000000000568 ) ) ;
#67 = APPROVAL ( #293, 'BELÝRTÝLMEMÝÞ' ) ;
#68 = AXIS2_PLACEMENT_3D ( 'NONE', #62, #130, #226 ) ;
#69 = PERSON ( 'BELÝRTÝLMEMÝÞ', 'BELÝRTÝLMEMÝÞ', 'BELÝRTÝLMEMÝÞ', ('BELÝRTÝLMEMÝÞ'), ('BELÝRTÝLMEMÝÞ'), ('BELÝRTÝLMEMÝÞ') ) ;
#70 = EDGE_LOOP ( 'NONE', ( #138, #29, #307 ) ) ;
#71 = VERTEX_POINT ( 'NONE', #190 ) ;
#72 = ORIENTED_EDGE ( 'NONE', *, *, #285, .F. ) ;
#73 = VERTEX_POINT ( 'NONE', #288 ) ;
#74 = TOROIDAL_SURFACE ( 'NONE', #250, 1.496610873642216566, 220.0000000000000568 ) ;
#75 = CARTESIAN_POINT ( 'NONE',  ( -1.432716039157874320E-14, 87.21301948096775902, 0.0000000000000000000 ) ) ;
#76 = CARTESIAN_POINT ( 'NONE',  ( 0.0000000000000000000, 0.0000000000000000000, 0.0000000000000000000 ) ) ;
#77 = APPROVAL_ROLE ( '' ) ;
#78 = CARTESIAN_POINT ( 'NONE',  ( 0.0000000000000000000, 82.00000000000001421, 0.0000000000000000000 ) ) ;
#79 = MANIFOLD_SOLID_BREP ( 'Döndür1', #119 ) ;
#80 = APPROVAL_ROLE ( '' ) ;
#81 = FACE_BOUND ( 'NONE', #137, .T. ) ;
#82 = CALENDAR_DATE ( 2019, 16, 12 ) ;
#83 = APPROVAL ( #290, 'BELÝRTÝLMEMÝÞ' ) ;
#84 = DIRECTION ( 'NONE',  ( 0.0000000000000000000, 0.0000000000000000000, -1.000000000000000000 ) ) ;
#85 = CC_DESIGN_APPROVAL ( #67, ( #179 ) ) ;
#86 = CARTESIAN_POINT ( 'NONE',  ( 0.0000000000000000000, -126.1818899053472052, 0.0000000000000000000 ) ) ;
#87 = DIRECTION ( 'NONE',  ( 0.0000000000000000000, 0.0000000000000000000, -1.000000000000000000 ) ) ;
#88 = VECTOR ( 'NONE', #155, 1000.000000000000000 ) ;
#89 = ORIENTED_EDGE ( 'NONE', *, *, #281, .F. ) ;
#90 = AXIS2_PLACEMENT_3D ( 'NONE', #78, #172, #271 ) ;
#91 = APPROVAL ( #152, 'BELÝRTÝLMEMÝÞ' ) ;
#92 = EDGE_LOOP ( 'NONE', ( #26, #187, #141, #259 ) ) ;
#93 = ORIENTED_EDGE ( 'NONE', *, *, #182, .F. ) ;
#94 = VERTEX_POINT ( 'NONE', #75 ) ;
#95 = CARTESIAN_POINT ( 'NONE',  ( 6.735557395310441037E-15, 87.21301948096775902, 54.99999999999998579 ) ) ;
#96 = APPROVAL_PERSON_ORGANIZATION ( #192, #83, #77 ) ;
#97 = DIRECTION ( 'NONE',  ( 0.0000000000000000000, 0.0000000000000000000, -1.000000000000000000 ) ) ;
#98 = APPLICATION_PROTOCOL_DEFINITION ( 'international standard', 'config_control_design', 1994, #297 ) ;
#99 = CARTESIAN_POINT ( 'NONE',  ( 0.0000000000000000000, 0.0000000000000000000, 0.0000000000000000000 ) ) ;
#100 = DATE_TIME_ROLE ( 'creation_date' ) ;
#101 = CARTESIAN_POINT ( 'NONE',  ( 6.735557395310441826E-15, 0.0000000000000000000, 54.99999999999999289 ) ) ;
#102 = TOROIDAL_SURFACE ( 'NONE', #279, 1.496610873642216566, 213.4001574416022891 ) ;
#103 = PERSON_AND_ORGANIZATION ( #69, #233 ) ;
#104 = DIRECTION ( 'NONE',  ( 0.0000000000000000000, 0.0000000000000000000, -1.000000000000000000 ) ) ;
#105 = SHAPE_DEFINITION_REPRESENTATION ( #295, #21 ) ;
#106 = CARTESIAN_POINT ( 'NONE',  ( 0.0000000000000000000, 0.0000000000000000000, -54.99999999999999289 ) ) ;
#107 = FACE_OUTER_BOUND ( 'NONE', #4, .T. ) ;
#108 = AXIS2_PLACEMENT_3D ( 'NONE', #216, #9, #97 ) ;
#109 = DIRECTION ( 'NONE',  ( 0.0000000000000000000, 0.0000000000000000000, -1.000000000000000000 ) ) ;
#110 = DESIGN_CONTEXT ( 'detailed design', #297, 'design' ) ;
#111 = CC_DESIGN_PERSON_AND_ORGANIZATION_ASSIGNMENT ( #217, #10, ( #57 ) ) ;
#112 = ORIENTED_EDGE ( 'NONE', *, *, #227, .F. ) ;
#113 = CC_DESIGN_DATE_AND_TIME_ASSIGNMENT ( #13, #100, ( #63 ) ) ;
#114 = VERTEX_POINT ( 'NONE', #167 ) ;
#115 = AXIS2_PLACEMENT_3D ( 'NONE', #223, #17, #104 ) ;
#116 = ORIENTED_EDGE ( 'NONE', *, *, #184, .F. ) ;
#117 = VERTEX_POINT ( 'NONE', #266 ) ;
#118 = CARTESIAN_POINT ( 'NONE',  ( 0.0000000000000000000, -126.1818899053472052, -1.496610873642216566 ) ) ;
#119 = CLOSED_SHELL ( 'NONE', ( #238, #306, #211, #134, #173, #205, #149, #262, #224 ) ) ;
#120 = CYLINDRICAL_SURFACE ( 'NONE', #108, 48.40000000000000568 ) ;
#121 = LOCAL_TIME ( 14, 43, 29.00000000000000000, #298 ) ;
#122 = CARTESIAN_POINT ( 'NONE',  ( 6.735557395310443404E-15, 0.0000000000000000000, 55.00000000000000711 ) ) ;
#123 = COORDINATED_UNIVERSAL_TIME_OFFSET ( 3, 0, .AHEAD. ) ;
#124 = DIRECTION ( 'NONE',  ( 1.000000000000000000, 0.0000000000000000000, -1.224646799147353207E-16 ) ) ;
#125 = PERSON_AND_ORGANIZATION ( #69, #233 ) ;
#126 = CYLINDRICAL_SURFACE ( 'NONE', #115, 54.99999999999999289 ) ;
#127 = EDGE_CURVE ( 'NONE', #94, #3, #31, .T. ) ;
#128 = AXIS2_PLACEMENT_3D ( 'NONE', #254, #42, #132 ) ;
#129 = CALENDAR_DATE ( 2019, 16, 12 ) ;
#130 = DIRECTION ( 'NONE',  ( -0.0000000000000000000, -1.000000000000000000, -0.0000000000000000000 ) ) ;
#131 = CARTESIAN_POINT ( 'NONE',  ( 0.0000000000000000000, 0.0000000000000000000, 0.0000000000000000000 ) ) ;
#132 = DIRECTION ( 'NONE',  ( 0.0000000000000000000, 0.0000000000000000000, -1.000000000000000000 ) ) ;
#133 = AXIS2_PLACEMENT_3D ( 'NONE', #58, #148, #246 ) ;
#134 = ADVANCED_FACE ( 'NONE', ( #30 ), #120, .F. ) ;
#135 = CC_DESIGN_APPROVAL ( #83, ( #63 ) ) ;
#136 =( NAMED_UNIT ( * ) PLANE_ANGLE_UNIT ( ) SI_UNIT ( $, .RADIAN. ) );
#137 = EDGE_LOOP ( 'NONE', ( #72, #25 ) ) ;
#138 = ORIENTED_EDGE ( 'NONE', *, *, #189, .F. ) ;
#139 = VECTOR ( 'NONE', #41, 1000.000000000000000 ) ;
#140 = ORIENTED_EDGE ( 'NONE', *, *, #184, .T. ) ;
#141 = ORIENTED_EDGE ( 'NONE', *, *, #231, .T. ) ;
#142 = DIRECTION ( 'NONE',  ( -1.000000000000000000, 0.0000000000000000000, 0.0000000000000000000 ) ) ;
#143 = DIRECTION ( 'NONE',  ( 1.000000000000000000, 0.0000000000000000000, 0.0000000000000000000 ) ) ;
#144 = AXIS2_PLACEMENT_3D ( 'NONE', #76, #168, #268 ) ;
#145 = DIRECTION ( 'NONE',  ( -0.0000000000000000000, -1.000000000000000000, -0.0000000000000000000 ) ) ;
#146 = CC_DESIGN_DATE_AND_TIME_ASSIGNMENT ( #176, #275, ( #258 ) ) ;
#147 = APPROVAL_DATE_TIME ( #56, #83 ) ;
#148 = DIRECTION ( 'NONE',  ( 1.000000000000000000, 0.0000000000000000000, -1.224646799147353207E-16 ) ) ;
#149 = ADVANCED_FACE ( 'NONE', ( #191 ), #289, .T. ) ;
#150 = APPROVAL_DATE_TIME ( #59, #67 ) ;
#151 = DIRECTION ( 'NONE',  ( 0.0000000000000000000, 0.0000000000000000000, -1.000000000000000000 ) ) ;
#152 = APPROVAL_STATUS ( 'not_yet_approved' ) ;
#153 = CARTESIAN_POINT ( 'NONE',  ( 0.0000000000000000000, -126.1818899053472052, 0.0000000000000000000 ) ) ;
#154 = DIRECTION ( 'NONE',  ( 0.0000000000000000000, 0.0000000000000000000, -1.000000000000000000 ) ) ;
#155 = DIRECTION ( 'NONE',  ( -0.0000000000000000000, -1.000000000000000000, -0.0000000000000000000 ) ) ;
#156 = CARTESIAN_POINT ( 'NONE',  ( 0.0000000000000000000, -126.1818899053472052, 0.0000000000000000000 ) ) ;
#157 = TOROIDAL_SURFACE ( 'NONE', #28, 1.496610873642216566, 213.4001574416022891 ) ;
#158 = EDGE_CURVE ( 'NONE', #47, #163, #283, .T. ) ;
#159 = UNCERTAINTY_MEASURE_WITH_UNIT (LENGTH_MEASURE( 1.000000000000000082E-05 ), #232, 'distance_accuracy_value', 'NONE');
#160 = AXIS2_PLACEMENT_3D ( 'NONE', #118, #214, #6 ) ;
#161 = LOCAL_TIME ( 14, 43, 29.00000000000000000, #39 ) ;
#162 = ORIENTED_EDGE ( 'NONE', *, *, #255, .T. ) ;
#163 = VERTEX_POINT ( 'NONE', #33 ) ;
#164 = VERTEX_POINT ( 'NONE', #122 ) ;
#165 = AXIS2_PLACEMENT_3D ( 'NONE', #229, #23, #109 ) ;
#166 = EDGE_LOOP ( 'NONE', ( #236, #212, #208 ) ) ;
#167 = CARTESIAN_POINT ( 'NONE',  ( -2.623769257414920730E-14, 93.81301948096773913, 0.0000000000000000000 ) ) ;
#168 = DIRECTION ( 'NONE',  ( -0.0000000000000000000, -1.000000000000000000, -0.0000000000000000000 ) ) ;
#169 = CC_DESIGN_PERSON_AND_ORGANIZATION_ASSIGNMENT ( #245, #34, ( #63 ) ) ;
#170 = COORDINATED_UNIVERSAL_TIME_OFFSET ( 3, 0, .AHEAD. ) ;
#171 = AXIS2_PLACEMENT_3D ( 'NONE', #35, #124, #220 ) ;
#172 = DIRECTION ( 'NONE',  ( -0.0000000000000000000, -1.000000000000000000, -0.0000000000000000000 ) ) ;
#173 = ADVANCED_FACE ( 'NONE', ( #218 ), #12, .F. ) ;
#174 = COORDINATED_UNIVERSAL_TIME_OFFSET ( 3, 0, .AHEAD. ) ;
#175 = PLANE ( 'NONE',  #209 ) ;
#176 = DATE_AND_TIME ( #82, #121 ) ;
#177 = FACE_OUTER_BOUND ( 'NONE', #70, .T. ) ;
#178 = LINE ( 'NONE', #253, #139 ) ;
#179 = PRODUCT_DEFINITION_FORMATION_WITH_SPECIFIED_SOURCE ( 'HERHANGÝ', '', #57, .NOT_KNOWN. ) ;
#180 = DIRECTION ( 'NONE',  ( -0.0000000000000000000, -1.000000000000000000, -0.0000000000000000000 ) ) ;
#181 = FACE_OUTER_BOUND ( 'NONE', #265, .T. ) ;
#182 = EDGE_CURVE ( 'NONE', #210, #3, #55, .T. ) ;
#183 = AXIS2_PLACEMENT_3D ( 'NONE', #131, #228, #20 ) ;
#184 = EDGE_CURVE ( 'NONE', #114, #47, #269, .T. ) ;
#185 = ORIENTED_EDGE ( 'NONE', *, *, #158, .F. ) ;
#186 = ORIENTED_EDGE ( 'NONE', *, *, #227, .T. ) ;
#187 = ORIENTED_EDGE ( 'NONE', *, *, #158, .T. ) ;
#188 = ORIENTED_EDGE ( 'NONE', *, *, #252, .F. ) ;
#189 = EDGE_CURVE ( 'NONE', #94, #210, #2, .T. ) ;
#190 = CARTESIAN_POINT ( 'NONE',  ( 0.0000000000000000000, 0.0000000000000000000, -48.40000000000001279 ) ) ;
#191 = FACE_OUTER_BOUND ( 'NONE', #92, .T. ) ;
#192 = PERSON_AND_ORGANIZATION ( #69, #233 ) ;
#193 = DIRECTION ( 'NONE',  ( -0.0000000000000000000, -1.000000000000000000, -0.0000000000000000000 ) ) ;
#194 = EDGE_CURVE ( 'NONE', #47, #164, #14, .T. ) ;
#195 = PERSON_AND_ORGANIZATION ( #69, #233 ) ;
#196 = CIRCLE ( 'NONE', #68, 54.99999999999998579 ) ;
#197 = DIRECTION ( 'NONE',  ( -0.0000000000000000000, -1.000000000000000000, -0.0000000000000000000 ) ) ;
#198 = PERSON_AND_ORGANIZATION_ROLE ( 'classification_officer' ) ;
#199 = CARTESIAN_POINT ( 'NONE',  ( 0.0000000000000000000, 0.0000000000000000000, 0.0000000000000000000 ) ) ;
#200 = DIRECTION ( 'NONE',  ( -0.0000000000000000000, -1.000000000000000000, -0.0000000000000000000 ) ) ;
#201 = AXIS2_PLACEMENT_3D ( 'NONE', #52, #142, #242 ) ;
#202 = CC_DESIGN_SECURITY_CLASSIFICATION ( #258, ( #179 ) ) ;
#203 = CC_DESIGN_PERSON_AND_ORGANIZATION_ASSIGNMENT ( #103, #198, ( #258 ) ) ;
#204 = CARTESIAN_POINT ( 'NONE',  ( 0.0000000000000000000, 0.0000000000000000000, 0.0000000000000000000 ) ) ;
#205 = ADVANCED_FACE ( 'NONE', ( #294, #81 ), #175, .T. ) ;
#206 = AXIS2_PLACEMENT_3D ( 'NONE', #204, #304, #87 ) ;
#207 = ORIENTED_EDGE ( 'NONE', *, *, #213, .T. ) ;
#208 = ORIENTED_EDGE ( 'NONE', *, *, #182, .T. ) ;
#209 = AXIS2_PLACEMENT_3D ( 'NONE', #273, #60, #151 ) ;
#210 = VERTEX_POINT ( 'NONE', #248 ) ;
#211 = ADVANCED_FACE ( 'NONE', ( #37 ), #126, .T. ) ;
#212 = ORIENTED_EDGE ( 'NONE', *, *, #189, .T. ) ;
#213 = EDGE_CURVE ( 'NONE', #117, #164, #257, .T. ) ;
#214 = DIRECTION ( 'NONE',  ( -1.000000000000000000, 0.0000000000000000000, 0.0000000000000000000 ) ) ;
#215 = LOCAL_TIME ( 14, 43, 29.00000000000000000, #174 ) ;
#216 = CARTESIAN_POINT ( 'NONE',  ( 0.0000000000000000000, 0.0000000000000000000, 0.0000000000000000000 ) ) ;
#217 = PERSON_AND_ORGANIZATION ( #69, #233 ) ;
#218 = FACE_OUTER_BOUND ( 'NONE', #282, .T. ) ;
#219 = CALENDAR_DATE ( 2019, 16, 12 ) ;
#220 = DIRECTION ( 'NONE',  ( -1.224646799147353207E-16, 0.0000000000000000000, -1.000000000000000000 ) ) ;
#221 = PERSON_AND_ORGANIZATION_ROLE ( 'design_supplier' ) ;
#222 = AXIS2_PLACEMENT_3D ( 'NONE', #86, #180, #278 ) ;
#223 = CARTESIAN_POINT ( 'NONE',  ( 0.0000000000000000000, 0.0000000000000000000, 0.0000000000000000000 ) ) ;
#224 = ADVANCED_FACE ( 'NONE', ( #177 ), #157, .F. ) ;
#225 = DATE_AND_TIME ( #129, #161 ) ;
#226 = DIRECTION ( 'NONE',  ( 0.0000000000000000000, 0.0000000000000000000, -1.000000000000000000 ) ) ;
#227 = EDGE_CURVE ( 'NONE', #163, #47, #196, .T. ) ;
#228 = DIRECTION ( 'NONE',  ( -0.0000000000000000000, -1.000000000000000000, -0.0000000000000000000 ) ) ;
#229 = CARTESIAN_POINT ( 'NONE',  ( 0.0000000000000000000, 0.0000000000000000000, 0.0000000000000000000 ) ) ;
#230 = AXIS2_PLACEMENT_3D ( 'NONE', #99, #193, #291 ) ;
#231 = EDGE_CURVE ( 'NONE', #163, #117, #19, .T. ) ;
#232 =( LENGTH_UNIT ( ) NAMED_UNIT ( * ) SI_UNIT ( .MILLI., .METRE. ) );
#233 = ORGANIZATION ( 'BELÝRTÝLMEMÝÞ', 'BELÝRTÝLMEMÝÞ', '' ) ;
#234 = ORIENTED_EDGE ( 'NONE', *, *, #213, .F. ) ;
#235 = ORIENTED_EDGE ( 'NONE', *, *, #231, .F. ) ;
#236 = ORIENTED_EDGE ( 'NONE', *, *, #127, .F. ) ;
#237 = VECTOR ( 'NONE', #200, 1000.000000000000000 ) ;
#238 = ADVANCED_FACE ( 'NONE', ( #300 ), #102, .F. ) ;
#239 = ORIENTED_EDGE ( 'NONE', *, *, #285, .T. ) ;
#240 = CARTESIAN_POINT ( 'NONE',  ( 0.0000000000000000000, 82.00000000000001421, -48.39999999999999858 ) ) ;
#241 =( NAMED_UNIT ( * ) SI_UNIT ( $, .STERADIAN. ) SOLID_ANGLE_UNIT ( ) );
#242 = DIRECTION ( 'NONE',  ( 0.0000000000000000000, 0.0000000000000000000, 1.000000000000000000 ) ) ;
#243 = MECHANICAL_CONTEXT ( 'NONE', #280, 'mechanical' ) ;
#244 = DIRECTION ( 'NONE',  ( 0.0000000000000000000, 0.0000000000000000000, -1.000000000000000000 ) ) ;
#245 = PERSON_AND_ORGANIZATION ( #69, #233 ) ;
#246 = DIRECTION ( 'NONE',  ( -1.224646799147353207E-16, 0.0000000000000000000, -1.000000000000000000 ) ) ;
#247 = PERSON_AND_ORGANIZATION ( #69, #233 ) ;
#248 = CARTESIAN_POINT ( 'NONE',  ( 5.927290507873190006E-15, 82.00000000000001421, 48.39999999999999858 ) ) ;
#249 = APPROVAL_ROLE ( '' ) ;
#250 = AXIS2_PLACEMENT_3D ( 'NONE', #156, #256, #45 ) ;
#251 = DIRECTION ( 'NONE',  ( -0.0000000000000000000, -1.000000000000000000, -0.0000000000000000000 ) ) ;
#252 = EDGE_CURVE ( 'NONE', #210, #73, #178, .T. ) ;
#253 = CARTESIAN_POINT ( 'NONE',  ( 5.927290507873190006E-15, 0.0000000000000000000, 48.40000000000000568 ) ) ;
#254 = CARTESIAN_POINT ( 'NONE',  ( 0.0000000000000000000, 82.00000000000001421, 0.0000000000000000000 ) ) ;
#255 = EDGE_CURVE ( 'NONE', #73, #71, #15, .T. ) ;
#256 = DIRECTION ( 'NONE',  ( -0.0000000000000000000, -1.000000000000000000, -0.0000000000000000000 ) ) ;
#257 = CIRCLE ( 'NONE', #292, 55.00000000000000711 ) ;
#258 = SECURITY_CLASSIFICATION ( '', '', #16 ) ;
#259 = ORIENTED_EDGE ( 'NONE', *, *, #296, .F. ) ;
#260 = CC_DESIGN_PERSON_AND_ORGANIZATION_ASSIGNMENT ( #125, #221, ( #179 ) ) ;
#261 = ORIENTED_EDGE ( 'NONE', *, *, #5, .F. ) ;
#262 = ADVANCED_FACE ( 'NONE', ( #107 ), #50, .T. ) ;
#263 = EDGE_LOOP ( 'NONE', ( #186, #286, #234, #235 ) ) ;
#264 = CIRCLE ( 'NONE', #128, 48.39999999999999858 ) ;
#265 = EDGE_LOOP ( 'NONE', ( #261, #140, #112 ) ) ;
#266 = CARTESIAN_POINT ( 'NONE',  ( 0.0000000000000000000, 0.0000000000000000000, -55.00000000000000711 ) ) ;
#267 = CARTESIAN_POINT ( 'NONE',  ( 0.0000000000000000000, 0.0000000000000000000, 0.0000000000000000000 ) ) ;
#268 = DIRECTION ( 'NONE',  ( 0.0000000000000000000, 0.0000000000000000000, -1.000000000000000000 ) ) ;
#269 = CIRCLE ( 'NONE', #133, 220.0000000000000568 ) ;
#270 = CALENDAR_DATE ( 2019, 16, 12 ) ;
#271 = DIRECTION ( 'NONE',  ( 0.0000000000000000000, 0.0000000000000000000, -1.000000000000000000 ) ) ;
#272 = CALENDAR_DATE ( 2019, 16, 12 ) ;
#273 = CARTESIAN_POINT ( 'NONE',  ( 48.40000000000001279, 0.0000000000000000000, 0.0000000000000000000 ) ) ;
#274 = EDGE_CURVE ( 'NONE', #3, #71, #303, .T. ) ;
#275 = DATE_TIME_ROLE ( 'classification_date' ) ;
#276 = LOCAL_TIME ( 14, 43, 29.00000000000000000, #170 ) ;
#277 = CARTESIAN_POINT ( 'NONE',  ( 0.0000000000000000000, -126.1818899053472052, 0.0000000000000000000 ) ) ;
#278 = DIRECTION ( 'NONE',  ( 0.0000000000000000000, 0.0000000000000000000, -1.000000000000000000 ) ) ;
#279 = AXIS2_PLACEMENT_3D ( 'NONE', #277, #65, #154 ) ;
#280 = APPLICATION_CONTEXT ( 'configuration controlled 3d designs of mechanical parts and assemblies' ) ;
#281 = EDGE_CURVE ( 'NONE', #3, #210, #264, .T. ) ;
#282 = EDGE_LOOP ( 'NONE', ( #188, #89, #48, #239 ) ) ;
#283 = CIRCLE ( 'NONE', #22, 54.99999999999998579 ) ;
#284 = ORIENTED_EDGE ( 'NONE', *, *, #296, .T. ) ;
#285 = EDGE_CURVE ( 'NONE', #71, #73, #305, .T. ) ;
#286 = ORIENTED_EDGE ( 'NONE', *, *, #194, .T. ) ;
#287 = ORIENTED_EDGE ( 'NONE', *, *, #5, .T. ) ;
#288 = CARTESIAN_POINT ( 'NONE',  ( 5.927290507873191584E-15, 0.0000000000000000000, 48.40000000000001990 ) ) ;
#289 = CYLINDRICAL_SURFACE ( 'NONE', #144, 54.99999999999999289 ) ;
#290 = APPROVAL_STATUS ( 'not_yet_approved' ) ;
#291 = DIRECTION ( 'NONE',  ( 0.0000000000000000000, 0.0000000000000000000, -1.000000000000000000 ) ) ;
#292 = AXIS2_PLACEMENT_3D ( 'NONE', #199, #299, #84 ) ;
#293 = APPROVAL_STATUS ( 'not_yet_approved' ) ;
#294 = FACE_OUTER_BOUND ( 'NONE', #1, .T. ) ;
#295 = PRODUCT_DEFINITION_SHAPE ( 'NONE', 'NONE',  #63 ) ;
#296 = EDGE_CURVE ( 'NONE', #164, #117, #38, .T. ) ;
#297 = APPLICATION_CONTEXT ( 'configuration controlled 3d designs of mechanical parts and assemblies' ) ;
#298 = COORDINATED_UNIVERSAL_TIME_OFFSET ( 3, 0, .AHEAD. ) ;
#299 = DIRECTION ( 'NONE',  ( -0.0000000000000000000, -1.000000000000000000, -0.0000000000000000000 ) ) ;
#300 = FACE_OUTER_BOUND ( 'NONE', #166, .T. ) ;
#301 = CIRCLE ( 'NONE', #160, 220.0000000000000568 ) ;
#302 = APPROVAL_PERSON_ORGANIZATION ( #61, #91, #249 ) ;
#303 = LINE ( 'NONE', #66, #88 ) ;
#304 = DIRECTION ( 'NONE',  ( -0.0000000000000000000, -1.000000000000000000, -0.0000000000000000000 ) ) ;
#305 = CIRCLE ( 'NONE', #165, 48.40000000000001279 ) ;
#306 = ADVANCED_FACE ( 'NONE', ( #181 ), #74, .T. ) ;
#307 = ORIENTED_EDGE ( 'NONE', *, *, #281, .T. ) ;
ENDSEC;
END-ISO-10303-21;
